Desperado

(/) Slide Up  (\) Slide Down  (h) Hammer On  (p) Pull Off  (b) Bend (r) Release (v) Vibrato
E|-------10----10h12-10------------------------------------------------------
B|-10/12----12----------12\10-8---8---10-8-------3---3/5---3-----------------
G|-0----------------------------9---9-8----0-2h4---4-0-------4\2-0-2-0-2-2-0-
D|-----------------------------------------------------------------------0---
A|-----------------------------------------------------------------0---------
E|------------------------------8-----8------3-----------0-------------------



E|-------------------------------------------------------------0-------------------------
B|-------------------------0--------------------------0--2--0-----3----------------------
G|--2/4--2--2--0-----0--------2--0-----0-----2--0--0-----------------4\2--0--2--0--2--2--
D|----------------0-----3-----------2-----2--4----------------------------------------0--
A|----------------------------------3--------3-------------------------------0-----------
E|----------3-----------3-----------------------------3--------0-------------------------



E|---------0---------------------------------
B|---0-3-0-----3---------0-----------------3-
G|-0-----2-------4\2-0-2---2-0-----0---------
D|-------1-----------------0-----0---0-2/4---
A|-------2-------------0---------------3-5---
E|---3-------0-----------------3-------------



E|-----3-3-3-3-2---------0-0-0-------------------------------------------3-3-3-0-2---------
B|---------------3-3-----------1-3-----------0-------------0-------3---------------3-3-----
G|-0-0---------------4-4-----------0-0-0-0-0---0-2-0-0---0---0-------0-0---------------4-4-
D|-----------------------------------------------------0-------2-4-------------------------
A|-------------2---------3-----------------------0-------------3/5---------------2---------
E|-----0---------------------------3-----0-------------3-----------------0-----------------



E|--0--0--0-----------------------------------
B|-----------1--3--------------------1-----1--
G|-----------------0--0-----2-----2-----2--2--
D|-----------------------0-----2-----------0--
A|--3-----------------------0-----------------
E|--------------3-----------------------------



E|--------------0--------0--3--3--0--5--3-----------------0------------------------------------------
B|--0--3--3--0-----------1-----------5--1--------0--3--3-----3---------------------0-----------------
G|--------2-----------0--0-----------5--2--0--0--------2--------4\2--0--2/4--0--2-----2--4p2p0-------
D|--------1--------------------------------------------1------------------------------0---------2p0--
A|--------2--------------3-----------0--0--------------2------------------------0--------------------
E|--3--------------0-----------3-----------------3-----------3---------------------------------------
http://www.guitartabcreator.com
Guitar Tab Creator is intended to store guitar tab created through the tool. It currently does not support in-line text editing. Any text you place in here will be lost. If you need to comment on your tab, please use the "Tab Notes" section located below.