teddy picker guitar solo

(/) Slide Up  (\) Slide Down  (h) Hammer On  (p) Pull Off  (b) Bend (r) Release (v) Vibrato


E|-----5/13--12--12--12--12--12--15--15--15-----5/13--12--12--12--12--12--15--15--15--
B|--5----------------------------------------5----------------------------------------
G|------------------------------------------------------------------------------------
D|------------------------------------------------------------------------------------
A|------------------------------------------------------------------------------------
E|------------------------------------------------------------------------------------



E|--12--12--17--13--12--12--12--12--12--15--15--15--12--12--17--13--12--12--12--10--10--8--8--6--6--
B|--------------------------------------------------------------------------------------------------
G|--------------------------------------------------------------------------------------------------
D|--------------------------------------------------------------------------------------------------
A|--------------------------------------------------------------------------------------------------
E|--------------------------------------------------------------------------------------------------



E|--5/17--5/17--5/17--5/17--
B|--5-----5-----5-----5-----
G|--------------------------
D|--------------------------
A|--------------------------
E|--------------------------



E|--17--17--15--15--13--13--12--10--8--5--17--
B|--------------------------------------------
G|--------------------------------------------
D|--------------------------------------------
A|--------------------------------------------
E|--------------------------------------------
http://www.guitartabcreator.com
Guitar Tab Creator is intended to store guitar tab created through the tool. It currently does not support in-line text editing. Any text you place in here will be lost. If you need to comment on your tab, please use the "Tab Notes" section located below.