Stevie Ray Vaughan - Little Wing

Stevie Ray Vaughan - Little Wing (Jimi Hendrix Cover)

Arrengement: Kristian Bak Nielsen

(/) Slide Up (\) Slide Down (h) Hammer On (p) Pull Off (b) Bend (r) Release (v) Vibrato

E G A
Eb|--x-12\--|--x-x----------------|----3h5-3---------------|-------------------------------|
Bb|--x-12\--|--x-x------5h7-5--5--|----3---3-3---3-3---3-3-|--------------5/7--------------|
Gb|--x-12\--|--x-x------5---5--5--|----------4/5-5-4/5-4-0-|--------------5/7--------------|
Db|--x------|--x-x-----5------7---|------------------------|--------5---5-------5----------|
Ab|--x------|---x-x-5h7-----------|------------------------|----5/7---7-------7---7-5--5---|
Eb|--x------|0-x-x---------------2|/3---------------------3|/5------------------------8-8-5|
E B A# A
|------------------------|----7h9-9h10-9-7-9----|------------------------|
|----8h10p8--------------|----7---7----7-7-7-7-6|------------------------|
|----7-------------------|-------------------8-7|-----5-7b½p5-5-7b½p5-5--|
|-------------7h9p7------|-------------------9-8|7-5/7------7--------7-7-|
|----------10-7----7-10-7|----------------------|------------------------|
|/0----------------------|/7--------------------|------------------------|
G C D D G
|----5/7\5-5-5\3-3-|---------|--------|-----------------------|
|----3/5\3-3-3\1-1-|----1----|---3----|-----------------------|
|----4/6\4-4-4\2-2-|---------|--------|-7---------------------|
|/5--5/7\5-5-5\3-3-|-2----2--|-4---4--|-7h9-9-7-7-----7-------|
|------------------|3-3--3-3-|5-5-5-5-|----------10-10-10-7-10|
|------------------|---------|--------|-----------------------|
E Impro G Impro A Impro E B Impro A Impro
|-----------|-----------|--------|-------*12-|--------|--------|
|-----------|-----------|--------|------*12--|--------|--------|
|-----------|-----------|--------|-----*12---|--------|--------|
|-0h2p------|-----------|--------|----*12----|--------|--------|
|-----------|-----------|--------|-----------|--------|--------|
|-----------|-----------|--------|\0---------|\7------|--------|
G C D D G
|----5/7\5-5-5\3-3-|---------|--------|-----------------------|
|----3/5\3-3-3\1-1-|----1----|---3----|-----------------------|
|----4/6\4-4-4\2-2-|---------|--------|-7---------------------|
|/5--5/7\5-5-5\3-3-|-2----2--|-4---4--|-7h9-9-7-7-----7-------|
|------------------|3-3--3-3-|5-5-5-5-|----------10-10-10-7-10|
|------------------|---------|--------|-----------------------|
E Impro G Impro A Impro E Impro B Impro A Impro
|-----------|-----------|--------|-----------|--------|--------|
|-----------|-----------|--------|-----------|--------|--------|
|-----------|-----------|--------|-----------|--------|--------|
|-----------|-----------|--------|-----------|--------|--------|
|-----------|-----------|--------|-----------|--------|--------|
|-----------|-----------|--------|-----------|--------|--------|
G Impro C Impro D Impro D Impro G
|------------------|---------|--------|-----------------------|
|------------------|---------|--------|-----------------------|
|------------------|---------|--------|-----------------------|
|------------------|---------|--------|-----------------------|
|------------------|---------|--------|-----------------------|
|------------------|---------|--------|-----------------------|


: E Impro G Impro A Impro E Impro B Impro A Impro
|-----------|-----------|--------|-----------|--------|--------|
|-----------|-----------|--------|-----------|--------|--------|
|-----------|-----------|--------|-----------|--------|--------|
|-----------|-----------|--------|-----------|--------|--------|
|-----------|-----------|--------|-----------|--------|--------|
|-----------|-----------|--------|-----------|--------|--------|
G C D Impro D Impro G
|---15-15----------|-----13-13------|------------|--------------------*12--|
|---15-15----------|-----13-13------|------------|--------------------*12--|
|13b------13br-----|-12b-------12br-|------------|--------------------*12--|
|------------------|----------------|------------|-------------------------|
|------------------|----------------|------------|-------------------------|
|------------------|----------------|------------|-------------------------|:

Slut på E
Guitar Tab Creator is intended to store guitar tab created through the tool. It currently does not support in-line text editing. Any text you place in here will be lost. If you need to comment on your tab, please use the "Tab Notes" section located below.