#1

(/) Slide Up  (\) Slide Down  (h) Hammer On  (p) Pull Off  (b) Bend (r) Release (v) Vibrato

E|--------------------------------------------------------------------------
B|--------------------------------------------------------------------------
G|--------------------------------------------------------------------------
D|-----2-----2-----2-----2-----2-----2-----2-----2-----2-----2-----2-----2--
A|--3-----3-----3-----0-----0-----0-----3-----3-----3-----0-----0-----0-----
E|--------------------------------------------------------------------------



E|--------------------------------------------------------------------------
B|--------------------------------------------------------------------------
G|--------------------------------------------------------------------------
D|-----4-----4-----4-----6-----6-----6-----4-----4-----4-----6-----6--------
A|--2-----2-----2-----4-----4-----4-----2-----2-----2-----4-----4-----4-----
E|--------------------------------------------------------------------------



E|-----------------------------------------------------------------
B|-----------------------------------------------------------------
G|-----------------------------------------------------------------
D|-----4-----------------------------4-----------------------------
A|--2--------4-----6-----6-----4--2--------4-----6-----6-----4-----
E|--------2-----4-----4-----2-----------2-----4-----4-----2--------
http://www.guitartabcreator.com
Guitar Tab Creator is intended to store guitar tab created through the tool. It currently does not support in-line text editing. Any text you place in here will be lost. If you need to comment on your tab, please use the "Tab Notes" section located below.