Foo Fighters Bridge burning

(/) Slide Up  (\) Slide Down  (h) Hammer On  (p) Pull Off  (b) Bend (r) Release (v) Vibrato


E|--------------------------------------------
B|--------------------------------------------
G|--------------------------------------------
D|--------------------------------------------
A|--5--7--5--7--5--7--5--7--5--7-----5--7-----
E|--------------------------------0--------0--



E|-----------------
B|-----------------
G|-----9--8--7--6--
D|-----9--8--7--6--
A|--7--7--6--5--4--
E|-----------------
http://www.guitartabcreator.com
Guitar Tab Creator is intended to store guitar tab created through the tool. It currently does not support in-line text editing. Any text you place in here will be lost. If you need to comment on your tab, please use the "Tab Notes" section located below.