Yeul'stheme

(/) Slide Up  (\) Slide Down  (h) Hammer On  (p) Pull Off  (b) Bend (r) Release (v) Vibrato
E|--3--------1------3/5--0-----------------------------------------------------------------------
B|--------1-----------------------3------6--5--------3-----------0----0--------------1-----1-----
G|-----2-----------------------0------------------2--------------2----1--------------0-----0-----
D|--0--------0--------------3------------------3------------5----0----0-----------2-----2--------
A|-----------------------1--------1---------2--------2-----------2----2--------0-----------------
E|---------------------------------------------------------------0----0--------------------------



E|----------------------------------------------0----------------------------------------
B|--------1-----1----0-----0-----------------3-----------0-------------0--------1-----1--
G|--------0-----0-------2--------5-----5--5-----------5-----2-------------2--------------
D|-----2-----2----------------2-----2--------------2-------------------------2-----2-----
A|--0----------------------0--------------------0----------------------------------------
E|------------------------------------------------------------------------1--------------



E|------------------------------------------------0--------------------5--3--------------
B|--------1-----1----0-----0-------------------3-----------0--------------------1-----1--
G|--------2-----2-------2--------5-----5----5-----------5-----2-----------------2-----2--
D|-----2-----2----------------2-----2----------------2-----------------------2-----2-----
A|-------------------------0----------------------0--------------------------------------
E|--1---------------------------------------------------------------------1--------------



E|----------------------------------------1----------------3----------------------------------
B|--------1-----1----1--3--------------0--------0-----0-------3-------------------------------
G|--------2-----2-------------0-----0-------------------------------5-----5--------5-----5----
D|-----2-----2-------------0-----0-----------3-----3-------------2-----2--------2-----2-------
A|------------------------------------------------------------0-------------------------------
E|--1-------------------1-----------------4----------------------------------3----------------



E|--0-----------------------------------------0-------------------------------------------------
B|-----0------------------------4-----5----4--------3-----3--------------1-----1----0-----------
G|-----------2-----2------------4--4----------------4-----4--------------1-----1-------2--------
D|--------1-----1------------4-------------------3-----3--------------2-----2-------------------
A|------------------------0---------------------------------------------------------------------
E|-----2--------------------------------------4--------------------0----------------------------



E|--------
B|--------
G|--------
D|--------
A|--------
E|--------
http://www.guitartabcreator.com
Guitar Tab Creator is intended to store guitar tab created through the tool. It currently does not support in-line text editing. Any text you place in here will be lost. If you need to comment on your tab, please use the "Tab Notes" section located below.