vapours

(/) Slide Up  (\) Slide Down  (h) Hammer On  (p) Pull Off  (b) Bend (r) Release (v) Vibrato


E|----------------------------------------------------------------------------------
B|----------------------------------------------------------------------------------
G|----------------------------------------------------------------------------------
D|-----------7--4------------------------------------7--4---------------------------
A|--5--7--5--------------5--7--9--7--10--9--5--7--5--------------5--7--9--7--10--9--
E|-----------------5--7------------------------------------5--7---------------------



E|----------------------------------------------------------------------------
B|----------------------------------------------------------------------------
G|----------------------------------------------------------------------------
D|----------------------------------------------------------------------------
A|---------------10--9--5--7--5--10--9-----2-----5--2--10--9------------------
E|--7--7--10--7-------------------------3-----3---------------5--7--5--10--9--



E|----------------------------------------------------------------
B|----------------------------------------------------------------
G|----------------------------------------------------------------
D|----------------------------------------------------------------
A|--------------------------------------------------10--10--9--7--
E|--3--7--5--10--3--7--5--10--3--7--5--10--3--7--5----------------



E|--
B|--
G|--
D|--
A|--
E|--
http://www.guitartabcreator.com
Guitar Tab Creator is intended to store guitar tab created through the tool. It currently does not support in-line text editing. Any text you place in here will be lost. If you need to comment on your tab, please use the "Tab Notes" section located below.