escape velocity

(/) Slide Up  (\) Slide Down  (h) Hammer On  (p) Pull Off  (b) Bend (r) Release (v) Vibrato


E|------------------------------------------------------------------------------
B|------------------------------------------------------------------------------
G|------------------------------------------------------------------------------
D|------------------------------------------------------------------------------
A|-----4--------------------------------4-----------------------9--9--9--11--9--
E|--5-----5--0--0--5--5--7--5--0--0--5-----5--0--0--7--7--7--9------------------



E|---------------------------------------------------------------------------
B|---------------------------------------------------------------------------
G|---------------------------------------------------------------------------
D|---------------------------------------------------------------------------
A|--7--9--11--9--7--7--7--9--11--9--7--7--11--9------------------------------
E|-----------------------------------------------9--9--7--11--11--9--12--12--



E|--------------------------------------------------------------------------------------------------------
B|--------------------------------------------------------------------------------------------------------
G|--------------------------------------------------------------------------------------------------------
D|--------------------------------------------------------------------------------------------------------
A|--------------------------------------------------------------------------------------------------------
E|--10--10--10--9--7--0--0--0--0--2--2--2--4--5--5--5--7--9--10--10--10--9--7--0--0--0--0--2--2--2--4--0--



E|--------------------------------
B|--------------------------------
G|--------------------------------
D|--------------------------------
A|--7--7--7--7--7--7--7--5-----7--
E|--------------------------7-----



E|-----------------------------------------------------------
B|-----------------------------------------------------------
G|-----------------------------------------------------------
D|-----------------------------------------------------------
A|--------4--5--4-----------7--7--5--5--4--5--4--5--7--5--4--
E|--5--5-----------5--5--7-----------------------------------



E|-----------------------------------------------------------------
B|-----------------------------------------------------------------
G|-----------------------------------------------------------------
D|-----------------------------------------------------------------
A|--------4--5--4-----------7--6--4--------5--4--5--4--5--7--5--4--
E|--5--5-----------5--5--7-----------0--0--------------------------
http://www.guitartabcreator.com
Guitar Tab Creator is intended to store guitar tab created through the tool. It currently does not support in-line text editing. Any text you place in here will be lost. If you need to comment on your tab, please use the "Tab Notes" section located below.