MMKnock Riff

(/) Slide Up  (\) Slide Down  (h) Hammer On  (p) Pull Off  (b) Bend (r) Release (v) Vibrato

Tab Writer and artist: John Vanvick
Song Name: Were not sure yet.

Intro
E|-----------------x2
B|-----------------
G|--------8--------
D|-----6-----6-----
A|--7-----------7--
E|-----------------


Intro
E|----------------------------------------------x1
B|----------------------------------------------
G|--------8--------------8--------------8-------
D|-----6-----6--------6-----6--------6-----6----
A|--7-----------7--7-----------7--7-----------7b
E|----------------------------------------------


Riff 1
E|----------------------x4
B|----------------------
G|----------------------
D|--6-----6-----6h8-----
A|--7-----7-----7-------
E|----------------------


Riff2
E|----------------------x4
B|----------------------
G|--6-----6-----6h8-----
D|--7-----7-----7-------
A|----------------------
E|----------------------


Riff3
E|---------------------------------------------x1
B|---------------------------------------------
G|---------------------------------------------
D|---------------------------------------------
A|--6-----6-----6-----6-----6-----6-----6-----6
E|--7-----7-----7-----7-----7-----7-----7-----7


Play...
Intro x2
Riff 1 x1
Riff 2 x1
Riff 1 x1
Riff 3 x1

Then Repeat.





http://www.guitartabcreator.com
Guitar Tab Creator is intended to store guitar tab created through the tool. It currently does not support in-line text editing. Any text you place in here will be lost. If you need to comment on your tab, please use the "Tab Notes" section located below.