Good Punk Riff 1

(/) Slide Up  (\) Slide Down  (h) Hammer On  (p) Pull Off  (b) Bend (r) Release (v) Vibrato

E|-5---5---5---5---5---5---5---5---5---5---5---5---3---5---
B|---7---7---7---7---7---7---7---7---7---7---7---7---5---7-
G|---------------------------------------------------------
D|---------------------------------------------------------
A|---------------------------------------------------------
E|---------------------------------------------------------



E|--5-----5-----5-----5-----5-----5-----5-----5-----5-----5-----5-----5-----------------
B|-----7-----7-----7-----7-----7-----7-----7-----7-----7-----7-----7-----7--3-----5-----
G|-----------------------------------------------------------------------------5-----7--
D|--------------------------------------------------------------------------------------
A|--------------------------------------------------------------------------------------
E|--------------------------------------------------------------------------------------
http://www.guitartabcreator.com
Guitar Tab Creator is intended to store guitar tab created through the tool. It currently does not support in-line text editing. Any text you place in here will be lost. If you need to comment on your tab, please use the "Tab Notes" section located below.