Hey Ian

(/) Slide Up  (\) Slide Down  (h) Hammer On  (p) Pull Off  (b) Bend (r) Release (v) Vibrato

(W|WW) Whole (H|HH) Half (Q|QQ) Quarter (E|EE) 8th (S|SS) 16th (T|TT) 32nd (X|XX) 64th


E|----------------------------------------------------------------
B|----------------------------------------------------------------
G|------------------------------4------------------------------4--
D|-----5-----4v-----4--------5--------5-----4v-----4--------5-----
A|--7-----7------5-----5--3--------7-----7------5-----5--3--------
E|----------------------------------------------------------------



E|---------------------------------------------------------------------
B|------------------------------------------------------------7--------
G|------------------------------4-----------4--------------7-----7-----
D|-----5-----4v-----4--------5-----------5-----5--------7-----------7--
A|---------------5-----5--3-----------5-----------5--5-----------------
E|--3-----3------------------------3-----------------------------------



E|----------------------------------------------------------------------
B|----------------------------------------------------------------------
G|-------4-------4-7--7-4-------4-------4-7--7-4-------4-------4-7--7-4-
D|-------5-5-5-5-5-5--5-5-------5-5-5-5-5-5--5-5-------5----------------
A|-7-7-7-7-7-7-7-7-7--7-7-3-3-3-3-3-3-3-3-3--3-3-------5-5-5-5-5-5--5-5-
E|-----------------------------------------------3-3-3-3-3-3-3-3-3--3-3-



E|------------------------
B|------------------------
G|-------4-------4-7--7-4-
D|-------4-4-4-4-4-4--4-4-
A|-5-5-5-5-5-5-5-5-5--5-5-
E|------------------------


t: S S S S S S S S S none S S S S S S S S none none none none none none none none none none none S none none
E|--------------------------------------------------------------
B|-8-8-8-8-8-8-8-8---8-8-8-8-8-8-8-8----------------------------
G|-9-9-9-9-9-9-9-9---9-9-9-9-9-9-9-9-7-4-5-5-5-5-5-5-5-7-9--7-5-
D|-9-9-9-9-9-9-9-9---9-9-9-9-9-9-9-9-7-4-5-5-5-5-5-5-5-7-9--7-5-
A|-7-7-7-7-7-7-7-7---7-7-7-7-7-7-7-7-5-2-3-3-3-3-3-3-3-5-7--5-3-
E|--------------------------------------------------------------


t: none none none none none none none none none none none none none none none none none none none none none none none none
E|-3-3-3-3-3-3-3-3-3-3-3-3-2-2-2-2-2-2-3-3-3-5-5-5-
B|-3-3-3-3-3-3-3-3-3-3-3-3-3-3-3-3-3-3-5-5-5-7-7-7-
G|-4-4-4-4-4-4-4-4-4-4-4-4-4-4-4-4-4-4-5-5-5-7-7-7-
D|-5-5-5-5-5-5-5-5-5-5-5-5-4-4-4-4-4-4-5-5-5-7-7-7-
A|-5-5-5-5-5-5-5-5-5-5-5-5-2-2-2-2-2-2-3-3-3-5-5-5-
E|-3-3-3-3-3-3-3-3-3-3-3-3-------------------------
http://www.guitartabcreator.com http://www.guitartabcreator.com
Guitar Tab Creator is intended to store guitar tab created through the tool. It currently does not support in-line text editing. Any text you place in here will be lost. If you need to comment on your tab, please use the "Tab Notes" section located below.