First Blues Riff

(/) Slide Up  (\) Slide Down  (h) Hammer On  (p) Pull Off  (b) Bend (r) Release (v) Vibrato

E|------10------10------10------------------------------------------
B|--12------12------12----------------------------------------------
G|--------------------------12--9--7--9--7--9-----------------------
D|---------------------------------------------8--8--8--8--7--5-----
A|---------------------------------------------------------------7--
E|------------------------------------------------------------------



E|----------------------------------------------12--
B|-----------------------------------8--10--11------
G|--------------------------------------------------
D|-----------7--5--9--7--7--7--8--9-----------------
A|--5--7--5-----------------------------------------
E|--------------------------------------------------
http://www.guitartabcreator.com
Guitar Tab Creator is intended to store guitar tab created through the tool. It currently does not support in-line text editing. Any text you place in here will be lost. If you need to comment on your tab, please use the "Tab Notes" section located below.