1

(/) Slide Up  (\) Slide Down  (h) Hammer On  (p) Pull Off  (b) Bend (r) Release (v) Vibrato


E|--------------------------------------------------------------------------------------------
B|--------------------------------------------------------------------------------------------
G|--------------------------------------------------------------------------------------------
D|-----------------------------------------------------------2--------------------------------
A|-----------1-----------0--1--2-----------1-----------1--2--------------1-----------0--1--2--
E|--0--3--0-----0--3--0-----------0--3--0-----0--3--0-----------0--3--0-----0--3--0-----------



E|-------------------12--
B|-----------10--11------
G|-----------------------
D|-----------------------
A|-----------------------
E|--0--3--0--------------
http://www.guitartabcreator.com
Guitar Tab Creator is intended to store guitar tab created through the tool. It currently does not support in-line text editing. Any text you place in here will be lost. If you need to comment on your tab, please use the "Tab Notes" section located below.