Cruise

(/) Slide Up  (\) Slide Down  (h) Hammer On  (p) Pull Off  (b) Bend (r) Release (v) Vibrato

E|----------------------------------------------------------------------------------
B|---------------------------6--6-----6h8--6-------------------4--4--4--4--4--------
G|--3--5/7--3--------3--5/7--------7----------3--5/7--3-----------------------5--3--
D|-------------4--5--------------------------------------4--5-----------------------
A|----------------------------------------------------------------------------------
E|----------------------------------------------------------------------------------



E|----------------------------------------------------------------------------------
B|---------------------------6--6-----6h8--6-------------------4--4--4--4--4--------
G|--3--5/7--3--------3--5/7--------7----------3--5/7--3-----------------------5--3--
D|-------------4--5--------------------------------------4--5-----------------------
A|----------------------------------------------------------------------------------
E|----------------------------------------------------------------------------------



E|----------------------------------------------------------------------------
B|--4--4/6--6--6--6--6--6\4--4--3--------4--4/6--6--6--6--6--6\4--4--3--------
G|---------------------------------5--3---------------------------------5--3--
D|----------------------------------------------------------------------------
A|----------------------------------------------------------------------------
E|----------------------------------------------------------------------------



E|-----------------------6--6--------13b15b13-----------------------------
B|---------------5--5/7--------8/13------------13b15p11--13b15b13p11--11--
G|-------3--5/7-----------------------------------------------------------
D|--3h5-------------------------------------------------------------------
A|------------------------------------------------------------------------
E|------------------------------------------------------------------------
http://www.guitartabcreator.com
Guitar Tab Creator is intended to store guitar tab created through the tool. It currently does not support in-line text editing. Any text you place in here will be lost. If you need to comment on your tab, please use the "Tab Notes" section located below.