Damage

(/) Slide Up  (\) Slide Down  (h) Hammer On  (p) Pull Off  (b) Bend (r) Release (v) Vibrato


E|-----------
B|-----------
G|-----------
D|--2--6--7--
A|--3--7--7--
E|--3--7--5--



E|----------------------------------
B|----------------------------------
G|-----5-------------5--------------
D|--3--5--7--5--3----5--5--3--5--7--
A|--3--3--7--5--3----3--5--3--5--7--
E|--1-----5--3--1-------3--1--3--5--



E|----------------------
B|----------------------
G|----------------5-----
D|--7--5----7--5--5--3--
A|--7--5----7--5--3--3--
E|--5--3----5--3-----1--
http://www.guitartabcreator.com
Guitar Tab Creator is intended to store guitar tab created through the tool. It currently does not support in-line text editing. Any text you place in here will be lost. If you need to comment on your tab, please use the "Tab Notes" section located below.