Boulevard of Broken Dreams

(/) Slide Up  (\) Slide Down  (h) Hammer On  (p) Pull Off  (b) Bend (r) Release (v) Vibrato
E|--------------------------------2--2--2--2--------------------
B|--0--0--0--0-----3--3--3--3-----3--3--3--3-----2--2--2--2-----
G|--0--0--0--0--0--0--0--0--0--0--2--2--2--2--0--2--2--2--2--0--
D|--2--2--2--2--0--0--0--0--0--0--0--0--0--0--0--2--2--2--2--0--
A|--2--2--2--2--0--2--2--2--2--0--0--0--0--0--0--0--0--0--0--0--
E|--0--0--0--0-----3--3--3--3-----------------------------------



E|------------------------
B|--8--9--9/13--11--8--9--
G|------------------------
D|------------------------
A|------------------------
E|------------------------



E|--------------------------------------------------------------
B|--------------------------------------------------------------
G|--6--6--6--6--0-----------------8--8--8--8--0-----------------
D|--6--6--6--6--0--6--6--6--6--0--8--8--8--8--0--3--3--3--3--0--
A|--4--4--4--4--0--6--6--6--6--0--6--6--6--6--0--3--3--3--3--0--
E|-----------------4--4--4--4--0-----------------1--1--1--1--0--



E|--------------------------------------------
B|--------------------------------------------
G|--6--6--6--6--0-----------------5--5--5--5--
D|--6--6--6--6--0--6--6--6--6--0--5--5--5--5--
A|--4--4--4--4--0--6--6--6--6--0--3--3--3--3--
E|-----------------4--4--4--4--0--------------
http://www.guitartabcreator.com
Guitar Tab Creator is intended to store guitar tab created through the tool. It currently does not support in-line text editing. Any text you place in here will be lost. If you need to comment on your tab, please use the "Tab Notes" section located below.