The Yearning

Marty Friedman - The Yearning

(/) Slide Up (\) Slide Down (h) Hammer On (p) Pull Off (b) Bend (r) Release (v) Vibrato

During the introduction, he is either over dubbing his guitar or using a harmonizer.
Tabbed is the lower harmony part.

0:00
E|------------------------------------------------------------------------------------------|
B|--------------------------8----------------------12--------------15-----------------------|
G|--4-4/7-7/9v----------------9-8-9-7-9--------------14-12--12/14v---14-14b16-16b14-12------|
D|---------------2v---9-9-9-------------8v---8v-----------14--------------------------14v---|
A|--2-2/5-5/7v---2v--------------------------8v---------------------------------------------|
E|---------------0v--------------------------6v---------------------------------------------|

0:11
E|------------------------------------------------------------------------------------------|
B|--------------------------8----------------------12--------------15-----------------------|
G|--4-4/7-7/9v----------------9-8-9-7-9--------------14-12--12/14v---14-14b16-16b14-12------|
D|---------------2v---9-9-9-------------8v---8v-----------14--------------------------14v---|
A|--2-2/5-5/7v---2v--------------------------8v---------------------------------------------|
E|---------------0v--------------------------6v---------------------------------------------|

0:22
E|--------------------------------------------|
B|--12---------------15-----------------------|
G|----14-12--12/14v---14-14b16-16b14-12-------|
D|---------14--------------------------14v----|
A|--------------------------------------------|
E|--------------------------------------------|

0:26
E|------------------------------------------------------------------------------------------|
B|--8/10-----8-10-**12b10**---------------------------------------7-------10----------------|
G|------9v--9--------------9v---9-12-9h12r9-7v----7-**9b7**-7h9v----9-7------7/9v-----------|
D|-----------------------------------------------9------------------------------------------|
A|------------------------------------------------------------------------------------------|
E|------------------------------------------------------------------------------------------|

**12b10** this means bend the 10th fret up to the equivalent 12th fret (pick)
and release it back to 10. DO NOT pick the bend up to the 12th fret note

0:36
E|------------------------------------------------------------------------------------------|
B|--8/10-10--------8-10-12-15v-----**19b17**-15-15b17v--19-17-15---------------15v----------|
G|----------9v--/9--------------16-------------------------------14v-----14-16------16-14---|
D|---------------------------------------------------------------------17-------------------|
A|------------------------------------------------------------------------------------------|
E|------------------------------------------------------------------------------------------|

0:46
E|-------------------------------------|
B|-------------------------------------|
G|-------------------------------------|
D|--17-14v-----14/17v----17-19-17-16v--|
A|----------17-------------------------|
E|-------------------------------------|

0:55
E|------------------------------------------------------------------------------------------|
B|--------------------------8----------------------12--------------15-----------------------|
G|--4-4/7-7/9v----------------9-8-9-7-9--------------14-12--12/14v---14-14b16-16b14-12------|
D|---------------2v---9-9-9-------------8v---8v-----------14--------------------------14v---|
A|--2-2/5-5/7v---2v--------------------------8v---------------------------------------------|
E|---------------0v--------------------------6v---------------------------------------------|

1:06
E|------------------------------------------------------------------------------------------|
B|--------------------------8----------------------12--------------15-----------------------|
G|--4-4/7-7/9v----------------9-8-9-7-9--------------14-12--12/14v---14-14b16-16b14-12------|
D|---------------2v---9-9-9-------------8v---8v-----------14--------------------------14v---|
A|--2-2/5-5/7v---2v--------------------------8v---------------------------------------------|
E|---------------0v--------------------------6v---------------------------------------------|

1:17
E|--------------------------------------------|
B|--12---------------15-----------------------|
G|----14-12--12/14v---14-14b16-16b14-12-------|
D|---------14--------------------------14v----|
A|--------------------------------------------|
E|--------------------------------------------|

1:21
E|-----------------------------------------------------------------------|
B|--8/10------8-10-10/12-------10-12p11p10----------------------7h8p7----|
G|-------9v-/9-----------9v--12-------------12p11p9-7v---7-9b11-------9v-|
D|-----------------------------------------------------9-----------------|
A|-----------------------------------------------------------------------|
E|-----------------------------------------------------------------------|

1:30
E|---------------------------------------------14h17r14-----------15---------------17-------|
B|----7-8-10-8-7-8-10-----8h10/12-12/15-----15----------17---15b17----15b17--17b19----17b19-|
G|--9-----------------9------------------16---------------16--------------------------------|
D|------------------------------------------------------------------------------------------|
A|------------------------------------------------------------------------------------------|
E|------------------------------------------------------------------------------------------|

1:40
E|---------------------------------------------------------10h12h14/17-14h15p14-------------|
B|---------12--------------------------------------10h12h13---------------------17-15-------|
G|---14b16----14b16---/11-12-9v-------------9h11h12-----------------------------------------|
D|-----------------------------------9h10h12------------------------------------------------|
A|------------------------------------------------------------------------------------------|
E|------------------------------------------------------------------------------------------|

1:44
E|---------15---------------1717--17v----|
B|---17h19----19p17p15-17b19--19--19v----|
G|---------------------------------------|
D|---------------------------------------|
A|---------------------------------------|
E|---------------------------------------|

1:51
E|---------------------------------------------------------------------------------------------|
B|---------------------------------------------------------------------------------------------|
G|---------------------------------------------------------------------------------------------|
D|-------------4-5---5----4-5-4------------------------------4-5----4-5-/7-9-9-7-5-5----7/9--5-|
A|---7-5-7--5-7-----5--7--------7-5--7-5-----5----7-5-7---5-7-----7-------------------7--------|
E|---------------------------------------6/7---------------------------------------------------|

2:02
E|-------------------------------------------------------------------------|
B|-------------------------------------------------------------------------|
G|-------------------------------------------------------------------------|
D|-------------4-5---5----4-5-4------------------------------4-5----4-5-7--|
A|---7-5-7--5-7-----5--7--------7-5--7-5-----5----7-5-7---5-7-----7--------|
E|---------------------------------------6/7-------------------------------|
Guitar Tab Creator is intended to store guitar tab created through the tool. It currently does not support in-line text editing. Any text you place in here will be lost. If you need to comment on your tab, please use the "Tab Notes" section located below.