Zydeco - Turn on Your Lovelight

(/) Slide Up  (\) Slide Down  (h) Hammer On  (p) Pull Off  (b) Bend (r) Release (v) Vibrato

E|---------------------------------------------------------
B|---------------------------------------------------------
G|---------------------------------------------------------
D|--10/12--15--15p12--12p10--10/12--12---------------------
A|--------------------------------------10/12--10----------
E|-------------------------------------------------13--10--



E|---------------------------------------------
B|---------------------------------------------
G|---------------------------------------------
D|--5p3-------3h5--3--5/7--5----------------5--
A|-------3h5------------------8--5----5--8-----
E|---------------------------------------------



E|----------------------------------------
B|---------------6-------6----------6-----
G|-------5--5h7-----7-------7----7--------
D|--5h7--------------------------------7--
A|----------------------------------------
E|----------------------------------------
http://www.guitartabcreator.com
Guitar Tab Creator is intended to store guitar tab created through the tool. It currently does not support in-line text editing. Any text you place in here will be lost. If you need to comment on your tab, please use the "Tab Notes" section located below.