Zaiko Langa Langa

(/) Slide Up  (\) Slide Down  (h) Hammer On  (p) Pull Off  (b) Bend (r) Release (v) Vibrato
E|-----0-----0-----------------------------------------10--9-----------
B|--------------12--9-------------------9h10p9--12--9---------10\8-----
G|--9-----9------------9--------------------------------------------9--
D|--------------------------11--11--12---------------------------------
A|---------------------------------------------------------------------
E|---------------------------------------------------------------------



E|-----0-----0---------------------------------------10--9------------
B|--------------12--9-----------------9h10p9--12--9---------10\8--12--
G|--9-----9------------9----------------------------------------------
D|------------------------11--11--12----------------------------------
A|--------------------------------------------------------------------
E|--------------------------------------------------------------------



E|---------------------------------14--14------14------14--16--14----------
B|--10--9--9---------9--12/14--15------15--15------15------14----------17--
G|------------11--9------------------------------------------------16------
D|-------------------------------------------------------------------------
A|-------------------------------------------------------------------------
E|-------------------------------------------------------------------------



E|--16------16------19--19------16----------14------14------17--14-------------
B|------17------17----------19------17--15------15------15----------15--15/17--
G|-----------------------------------------------------------------------------
D|-----------------------------------------------------------------------------
A|-----------------------------------------------------------------------------
E|-----------------------------------------------------------------------------



E|-------------------------------------------------------------
B|--9-----9-----12--10--9---------7-----7-----10--7------------
G|-----9-----9-------------11--9-----7-----7---------7--7/9\7--
D|-------------------------------------------------------------
A|-------------------------------------------------------------
E|-------------------------------------------------------------



E|---------------------------------------------------------------
B|--9-----9-----12--10------9---------7-----7-----10--7----------
G|-----9-----9----------11-----9--11-----7-----7---------7--7/9--
D|---------------------------------------------------------------
A|---------------------------------------------------------------
E|---------------------------------------------------------------



E|--------7--5-----4--------2-----2-----5--2----------
B|--5--5--------7-----5--7-----3-----3--------3--3/5--
G|----------------------------------------------------
D|----------------------------------------------------
A|----------------------------------------------------
E|----------------------------------------------------



E|--4-----4-----7--5-----4--------2-----2-----5--2-----2/7--
B|-----5-----5--------7-----5--7-----3-----3--------3-------
G|----------------------------------------------------------
D|----------------------------------------------------------
A|----------------------------------------------------------
E|----------------------------------------------------------



E|--16------16------19--17------16--------------14------17--14---------------------
B|------17------17----------19------17--19--15------15----------15--15--16--17-----
G|---------------------------------------------------------------------------------
D|---------------------------------------------------------------------------------
A|---------------------------------------------------------------------------------
E|---------------------------------------------------------------------------------



E|----------14--17--14/16--14------------------16--19--19/0--0--0--0--
B|------15---------------------17--15------17-------------------------
G|--14---------------------------------16-----------------------------
D|--------------------------------------------------------------------
A|--------------------------------------------------------------------
E|--------------------------------------------------------------------



E|------------------------------------------------16------16----------
B|--15p12------12--15--15p12------12--15----17--------17------19--17--
G|---------14-----------------14--------------------------------------
D|--------------------------------------------------------------------
A|--------------------------------------------------------------------
E|--------------------------------------------------------------------
http://www.guitartabcreator.com
Guitar Tab Creator is intended to store guitar tab created through the tool. It currently does not support in-line text editing. Any text you place in here will be lost. If you need to comment on your tab, please use the "Tab Notes" section located below.