Tshala Muana - Mutuashi

(/) Slide Up  (\) Slide Down  (h) Hammer On  (p) Pull Off  (b) Bend (r) Release (v) Vibrato

E|----------------------------------------------------------------------
B|--5--5--5--8--8--8--5--8--5-------------------------------------------
G|--6-----------------6--------7--6-------------------------------------
D|-----------------------------------7--5--7--5--5--7--5----------------
A|--------------------------------------------------------7--5--4-------
E|-----------------------------------------------------------------5----



E|--------------5----------------------------------
B|-----3-----5--5--------5----------------3-----5--
G|-----------------7--6-----7--6-------------------
D|--5-----7-----------------------7----5-----7-----
A|-------------------------------------------------
E|-------------------------------------------------
http://www.guitartabcreator.com
Guitar Tab Creator is intended to store guitar tab created through the tool. It currently does not support in-line text editing. Any text you place in here will be lost. If you need to comment on your tab, please use the "Tab Notes" section located below.