Tshala Muana - Dezo Dezo

(/) Slide Up  (\) Slide Down  (h) Hammer On  (p) Pull Off  (b) Bend (r) Release (v) Vibrato


E|----------------------------------------------------------------------------
B|--------3-----4--3-----6-----6--6--6--6--8--8----------3-----3-----4--3-----
G|--3--3-----3--------5-----5-------------------------3-----3-----3--------5--
D|-------------------------------------------------3--------------------------
A|----------------------------------------------------------------------------
E|----------------------------------------------------------------------------



E|-----------6-----6--8-----
B|--6-----6-----8-----------
G|-----5-----------------5--
D|--------------------------
A|--------------------------
E|--------------------------
http://www.guitartabcreator.com
Guitar Tab Creator is intended to store guitar tab created through the tool. It currently does not support in-line text editing. Any text you place in here will be lost. If you need to comment on your tab, please use the "Tab Notes" section located below.