Somada

(/) Slide Up  (\) Slide Down  (h) Hammer On  (p) Pull Off  (b) Bend (r) Release (v) Vibrato


E|-------------------------------------
B|--20--20--18--18--17--17-------------
G|--------------------------19--19-----
D|-------------------------------------
A|-------------------------------------
E|-------------------------------------



E|----------20------17--------------20------17---------
B|------17------20------18------17------20------20-----
G|--17----------------------17-------------------------
D|-----------------------------------------------------
A|-----------------------------------------------------
E|-----------------------------------------------------



E|----------20------17--------------20------17----------
B|------17------20------18------17------20------20--18--
G|--17----------------------17--------------------------
D|------------------------------------------------------
A|------------------------------------------------------
E|------------------------------------------------------



E|------------------------17---------------------------------------
B|--20----------20----18--------20----------20---------------------
G|------17--17----------------------17--17--------19----16--17-----
D|-----------------------------------------------------------------
A|-----------------------------------------------------------------
E|-----------------------------------------------------------------
http://www.guitartabcreator.com
Guitar Tab Creator is intended to store guitar tab created through the tool. It currently does not support in-line text editing. Any text you place in here will be lost. If you need to comment on your tab, please use the "Tab Notes" section located below.