So Cu Pe

(/) Slide Up  (\) Slide Down  (h) Hammer On  (p) Pull Off  (b) Bend (r) Release (v) Vibrato

E|--21--18--19------------------21--18----------------------
B|----------------------19--------------21----------18--19--
G|--------------16--16----------------------18--18----------
D|----------------------------------------------------------
A|----------------------------------------------------------
E|----------------------------------------------------------



E|------------------14--------11------------------------14----11----------
B|------11------14--------12------14--------11------14------------14--11--
G|--11------11--------------------------11------11------------------------
D|------------------------------------------------------------------------
A|------------------------------------------------------------------------
E|------------------------------------------------------------------------
http://www.guitartabcreator.com
Guitar Tab Creator is intended to store guitar tab created through the tool. It currently does not support in-line text editing. Any text you place in here will be lost. If you need to comment on your tab, please use the "Tab Notes" section located below.