Sijuade

(/) Slide Up  (\) Slide Down  (h) Hammer On  (p) Pull Off  (b) Bend (r) Release (v) Vibrato


E|--10--10--8--10-----7----------------------------8--7-----------
B|-----------------8-----10----------10--8--10--8--------8--------
G|----------------------------------------------------------------
D|----------------------------------------------------------------
A|----------------------------------------------------------------
E|----------------------------------------------------------------



E|---------------------------------------------------------------------------------------------
B|---------------------------------------------------------------------------------------------
G|---------------------------------------------------------------------------------------------
D|-------------7--7------9--7--------------------------------7--7--------9--7------------------
A|--10--7--10------------------10--7--10----------10--7--10--------------------10--7--10----7--
E|---------------------------------------------------------------------------------------------



E|--10--10--8--10-----7----------------------------8--7---------------------
B|-----------------8-----10----------10--8--10--8--------8----------8-------
G|---------------------------------------------------------------------9\7--
D|--------------------------------------------------------------------------
A|--------------------------------------------------------------------------
E|--------------------------------------------------------------------------



E|--10--10--8--10-----7----------------------------8--7-------------------
B|-----------------8-----10----------10--8--10--8--------8--------8-------
G|-------------------------------------------------------------------9\7--
D|------------------------------------------------------------------------
A|------------------------------------------------------------------------
E|------------------------------------------------------------------------
http://www.guitartabcreator.com
Guitar Tab Creator is intended to store guitar tab created through the tool. It currently does not support in-line text editing. Any text you place in here will be lost. If you need to comment on your tab, please use the "Tab Notes" section located below.