Sata - Tabu Ley Rochereau

(/) Slide Up  (\) Slide Down  (h) Hammer On  (p) Pull Off  (b) Bend (r) Release (v) Vibrato
E|------------------5-------------------------
B|---------------6-----8p6-----6--6-----8--5--
G|--------------------------------------------
D|-----5--5-----------------3--------5--------
A|--------------------------------------------
E|--8-----------------------------------------



E|--------------15------------------------------------------------------------
B|------17--15------18--18p17--15--18----------17------17--15--15p13------13--
G|--17-------------------------------------17------17-----------------14------
D|----------------------------------------------------------------------------
A|----------------------------------------------------------------------------
E|----------------------------------------------------------------------------



E|------17------15--13p12------13-------------------------------------
B|--18------17-------------15----------13------15--13--13p12------13--
G|---------------------------------12------14-----------------14------
D|--------------------------------------------------------------------
A|--------------------------------------------------------------------
E|--------------------------------------------------------------------



E|--12------12------15--13--13p12------13-------------------------------------
B|--13--13------13-----------------15----------13------15--13--13p12----------
G|-----------------------------------------14------14-----------------14--12--
D|----------------------------------------------------------------------------
A|----------------------------------------------------------------------------
E|----------------------------------------------------------------------------



E|------15------13\--13p12------13-----------------------------------
B|--13------13--------------15------------13------15--13--13p12------
G|------------------------------------14------14-----------------14--
D|-------------------------------------------------------------------
A|-------------------------------------------------------------------
E|-------------------------------------------------------------------



E|--
B|--
G|--
D|--
A|--
E|--
http://www.guitartabcreator.com
Guitar Tab Creator is intended to store guitar tab created through the tool. It currently does not support in-line text editing. Any text you place in here will be lost. If you need to comment on your tab, please use the "Tab Notes" section located below.