Rose Muhando - Nalegea

(/) Slide Up  (\) Slide Down  (h) Hammer On  (p) Pull Off  (b) Bend (r) Release (v) Vibrato
E|--------------------------------------------------------------------------------------------------
B|--9--9--9--9--9--9------9--10---------------------------------------------------------------------
G|--9--9--9-----------11-------------9--9--9----11--9--11--8--9--11----9----------------------------
D|--9--9--9---------------------------------------------------------------9--9--10--10--11--11--12--
A|--------------------------------------------------------------------------------------------------
E|--------------------------------------------------------------------------------------------------



E|-------------------------------------------------------------------
B|--10--9--10--12--10--9------------------9--10--12--10--9----12/10--
G|------------------------11--9--9--11-------------------------------
D|-------------------------------------------------------------------
A|-------------------------------------------------------------------
E|-------------------------------------------------------------------



E|--------------------------------------------------------------------------
B|--------------------------------------------------------------------------
G|-------------9----11--11--11--8--8------------------9----8p6--------------
D|--9--9--9---------------------------9----9--9--9--------------9-----------
A|-----------------------------------------------------------------9--9--9--
E|--------------------------------------------------------------------------



E|--19--16--16------16--17--16------16--17--16------16--------------16--------------------
B|--------------19--------------19--------------19------17----17--------17--19--16--------
G|----------------------------------------------------------------------------------16----
D|----------------------------------------------------------------------------------------
A|----------------------------------------------------------------------------------------
E|----------------------------------------------------------------------------------------
http://www.guitartabcreator.com
Guitar Tab Creator is intended to store guitar tab created through the tool. It currently does not support in-line text editing. Any text you place in here will be lost. If you need to comment on your tab, please use the "Tab Notes" section located below.