Prese Bass

(/) Slide Up  (\) Slide Down  (h) Hammer On  (p) Pull Off  (b) Bend (r) Release (v) Vibrato


E|-----------------------------------------------------------------------------------
B|-----------------------------------------------------------------------------------
G|--------------------------------5--5--5--5--------------------------5--5--5--5-----
D|-----------3----------5--------------------------3--------5------------------------
A|--5--3--5-----3--3--------------------------5-------3--3------------------------5--
E|-------------------------3-----------------------------------3---------------------



E|--------------------------------------------------------------------
B|--------------------------------------------------------------------
G|---------------------------7----------------------------------------
D|--7-------------7-------------9-----------------------7--7----8-----
A|-----10--8--10-----10--10--------10--8--8--8--8----8-------------8--
E|--------------------------------------------------------------------



E|------------------------------------------------------------------
B|------------------------------------------------------------------
G|---------------------------7--------------------------------------
D|--7-------------7-------------9---------------------7--7-------8--
A|-----10--8--10-----10--10--------10--8--8--8--8--8----------------
E|------------------------------------------------------------8-----
http://www.guitartabcreator.com
Guitar Tab Creator is intended to store guitar tab created through the tool. It currently does not support in-line text editing. Any text you place in here will be lost. If you need to comment on your tab, please use the "Tab Notes" section located below.