Perfusion - Pepe Kalle

(/) Slide Up  (\) Slide Down  (h) Hammer On  (p) Pull Off  (b) Bend (r) Release (v) Vibrato


E|--12---------------------15--15/17--14------17-----------------------------14--12----
B|------13--12----------------------------15-------------------------12--15------------
G|--------------14p13--12--------------------------------------------------------------
D|--------------------------------------------------12h14--14--14----------------------
A|-------------------------------------------------------------------------------------
E|-------------------------------------------------------------------------------------



E|--12--12---------------------------------------------------------
B|----------13--12-------------------------------------------------
G|------------------14p13--12----12\11--11--11--11--11\9--9--9--9--
D|-----------------------------------------------------------------
A|-----------------------------------------------------------------
E|-----------------------------------------------------------------



E|-------------------------------------------------17----------------------------
B|-----------------------------------------15-----------------------------15-----
G|--12------12/14--14--12--12--12------14------14-----------------13-------------
D|------14-------------------------16------------------12h13--14------14---------
A|-------------------------------------------------------------------------------
E|-------------------------------------------------------------------------------



E|---------17-------------------------------------------------------------------------
B|-----------------17--17------15--15----------15------15-------------------------15--
G|--18h19------18----------18----------16--14------14------16-------------13----------
D|-------------------------------------------------------------12h13--14------14------
A|------------------------------------------------------------------------------------
E|------------------------------------------------------------------------------------
http://www.guitartabcreator.com
Guitar Tab Creator is intended to store guitar tab created through the tool. It currently does not support in-line text editing. Any text you place in here will be lost. If you need to comment on your tab, please use the "Tab Notes" section located below.