Pepe Kalle - Papi Tex BASS TAB 1

(/) Slide Up  (\) Slide Down  (h) Hammer On  (p) Pull Off  (b) Bend (r) Release (v) Vibrato


E|--------------------------------------------------------------------
B|--------------------------------------------------------------------
G|-----10--10---------------------------------------------------------
D|-----------------10--10--10----10--10--8--8--8------10--10--10--10--
A|--8-----------------------------------------------------------------
E|--------------------------------------------------------------------



E|--------------------------------------------------
B|--------------------------------------------------
G|-----10--10---------------------------------------
D|---------------10--10--10----10--10--8--7---------
A|--8----------------------------------------10--8--
E|--------------------------------------------------



E|------------------------------------------
B|------------------------------------------
G|------------------------------------------
D|----------10-------8-------10----8--8-----
A|--8----8--------8-------8--------------8--
E|------------------------------------------
http://www.guitartabcreator.com
Guitar Tab Creator is intended to store guitar tab created through the tool. It currently does not support in-line text editing. Any text you place in here will be lost. If you need to comment on your tab, please use the "Tab Notes" section located below.