Pepe Kalle - Papi Tex 1

(/) Slide Up  (\) Slide Down  (h) Hammer On  (p) Pull Off  (b) Bend (r) Release (v) Vibrato

E|-----5-----5----------------------5-----5-----------------
B|--6-----8-----6--6--8--5--6----6-----8-----6--6--8--5--6--
G|----------------------------------------------------------
D|----------------------------------------------------------
A|----------------------------------------------------------
E|----------------------------------------------------------



E|--5-----------6--6--6--5-----------------
B|-----8--6--6--------------8--6-----------
G|-----------------------------------------
D|-----------------------------------------
A|-----------------------------------------
E|-----------------------------------------



E|----------17----17/20------17--------------17--18--18--18--18--18--18--18--20------17-------------
B|------18---------------20------20--18--18--------------------------------------20------20--18-----
G|--17----------------------------------------------------------------------------------------------
D|--------------------------------------------------------------------------------------------------
A|--------------------------------------------------------------------------------------------------
E|--------------------------------------------------------------------------------------------------



E|------17--
B|--18------
G|----------
D|----------
A|----------
E|----------
http://www.guitartabcreator.com
Guitar Tab Creator is intended to store guitar tab created through the tool. It currently does not support in-line text editing. Any text you place in here will be lost. If you need to comment on your tab, please use the "Tab Notes" section located below.