Nhas Rapazis

(/) Slide Up  (\) Slide Down  (h) Hammer On  (p) Pull Off  (b) Bend (r) Release (v) Vibrato

E|--10------10--------------------10------10--9----------------
B|------10------12--------------------10-----------10--10--10--
G|--------------------12--12--12-------------------------------
D|-------------------------------------------------------------
A|-------------------------------------------------------------
E|-------------------------------------------------------------



E|----------14--------
B|--15--15------17----
G|--------------------
D|--------------------
A|--------------------
E|--------------------



E|------14----------14--
B|--15--------17--------
G|----------------------
D|----------------------
A|----------------------
E|----------------------



E|------10--------10--10------------------10--------10------10--10--9------------
B|--10--------10----------12--------------------10------10-------------10--10----
G|----------------------------12--12---------------------------------------------
D|-------------------------------------------------------------------------------
A|-------------------------------------------------------------------------------
E|-------------------------------------------------------------------------------
http://www.guitartabcreator.com
Guitar Tab Creator is intended to store guitar tab created through the tool. It currently does not support in-line text editing. Any text you place in here will be lost. If you need to comment on your tab, please use the "Tab Notes" section located below.