Mabulu - Nbinheto

(/) Slide Up  (\) Slide Down  (h) Hammer On  (p) Pull Off  (b) Bend (r) Release (v) Vibrato
E|-----3-----0-----1--------0-----------0-----1--------0--
B|--------------------1-----------3--------------1--------
G|--------------------2--------------------------2--------
D|--------2-----3--------3-----------0-----3--------3-----
A|--3-----------------------------------------------------
E|-----------------------------3--------------------------



E|--5--8--8--7--5-------5--8--7--5-----------------
B|-----------------8----------------8--5-----5--5--
G|----------------------------------------5--------
D|-------------------------------------------------
A|-------------------------------------------------
E|-------------------------------------------------



E|--
B|--
G|--
D|--
A|--
E|--



E|----------------------------------------------------------------------------------------
B|--5--8--6--5----------------------------------5--8--6--5--6--5--------------------------
G|--------------7--9p7-----------------------5--------------------------------------------
D|----------------------10--9--9/10--9----7-----------------------------10--12--12/14-----
A|------------------------------------------------------------------12--------------------
E|----------------------------------------------------------------------------------------



E|----------------------------------------------------
B|----------------13--12--15--13--12------------------
G|--14p12--12h14----------------------14--12--12--14--
D|----------------------------------------------------
A|----------------------------------------------------
E|----------------------------------------------------



E|--12--15--13--12--------------------------------------
B|--13--------------15--13--12--15--13--12------13--12--
G|------------------------------------------14----------
D|------------------------------------------------------
A|------------------------------------------------------
E|------------------------------------------------------



E|--10/12--12----------10/12---------------------------------------------------------------------
B|-------------13-------------13-----------------------------------------------------------------
G|-----------------12-------------12------12------12---------------------------------------------
D|--------------------------------------------14------15--14--12------14--12----------12---------
A|----------------------------------------------------------------15----------15--15------15-----
E|-----------------------------------------------------------------------------------------------



E|------
B|------
G|------
D|------
A|--14--
E|------



E|-----------------------------------------
B|--5--8--6--5-----5-----------------------
G|--------------7-----7--5--5--7--5--4-----
D|-----------------------------------------
A|-----------------------------------------
E|-----------------------------------------



E|--------------------------------------
B|--------------------------------------
G|--------------------------------------
D|--5--5--5--5/7--5--7--7/9----5--5--5--
A|--------------------------------------
E|--------------------------------------
http://www.guitartabcreator.com
Guitar Tab Creator is intended to store guitar tab created through the tool. It currently does not support in-line text editing. Any text you place in here will be lost. If you need to comment on your tab, please use the "Tab Notes" section located below.