L'argent Ne Fait Pas Le Bonheur 3

(/) Slide Up  (\) Slide Down  (h) Hammer On  (p) Pull Off  (b) Bend (r) Release (v) Vibrato


E|--------------------------------------------------
B|----------13--14--16--14--13--14------------------
G|--13--15--------------------------15--13----------
D|------------------------------------------15--15--
A|--------------------------------------------------
E|--------------------------------------------------



E|--------------16--15p13-------------------------------------------------------
B|------13--16-------------16---------14--16--------------13--14p13------13\11--
G|--13-------------------------11/13------------------13-------------15--13-11--
D|------------------------------------------------------------------------------
A|------------------------------------------------------------------------------
E|------------------------------------------------------------------------------
http://www.guitartabcreator.com
Guitar Tab Creator is intended to store guitar tab created through the tool. It currently does not support in-line text editing. Any text you place in here will be lost. If you need to comment on your tab, please use the "Tab Notes" section located below.