L'argent Ne Fait Pas Le Bonheur

(/) Slide Up  (\) Slide Down  (h) Hammer On  (p) Pull Off  (b) Bend (r) Release (v) Vibrato
E|------------------------------------------------------------------------------------------
B|------------------------------------------------------------------------------------------
G|--------5--6--8--6--8--6--5--6--6--5--6--8------------5--6--8--6--8--6--5--6--6--5--------
D|--6--8------------------------------------------6--8--------------------------------8--6--
A|------------------------------------------------------------------------------------------
E|------------------------------------------------------------------------------------------



E|------------------------
B|------9-----------------
G|--10-----10------8------
D|-------------10-----10--
A|------------------------
E|------------------------



E|-------------------------16--15p13-----------------------------------------
B|--13\11----------13--16-------------16---------14--16--------------14------
G|--13\11------13-------------------------11/13----------13--13--15------15--
D|---------15----------------------------------------------------------------
A|---------------------------------------------------------------------------
E|---------------------------------------------------------------------------



E|--
B|--
G|--
D|--
A|--
E|--
http://www.guitartabcreator.com
Guitar Tab Creator is intended to store guitar tab created through the tool. It currently does not support in-line text editing. Any text you place in here will be lost. If you need to comment on your tab, please use the "Tab Notes" section located below.