Kompa Jam Guitar Lesson Zanmi NICKENSON PRUD'HOMME

(/) Slide Up  (\) Slide Down  (h) Hammer On  (p) Pull Off  (b) Bend (r) Release (v) Vibrato


E|--11---------------------------8--10--11--10-----------------
B|--------11--9--8--9--11--11---------------------11--11--9----
G|-------------------------------------------------------------
D|-------------------------------------------------------------
A|-------------------------------------------------------------
E|-------------------------------------------------------------



E|--------8---------------------------------------------------------
B|--9h11-----9/11--9--8--------------------------------11----11/13--
G|-----------------------9--9/13------------------------------------
D|--------------------------------10--13--13--13h15-----------------
A|------------------------------------------------------------------
E|------------------------------------------------------------------
http://www.guitartabcreator.com
Guitar Tab Creator is intended to store guitar tab created through the tool. It currently does not support in-line text editing. Any text you place in here will be lost. If you need to comment on your tab, please use the "Tab Notes" section located below.