Koffi Olomide - Libebe

(/) Slide Up  (\) Slide Down  (h) Hammer On  (p) Pull Off  (b) Bend (r) Release (v) Vibrato


E|----------------------------------------------------------------------------------------------
B|----------------------------------------------------------------------------------------------
G|--8--5----2--2--2-----2--2--2-----2--2--2-----2--2--2-----2--2--2-----2--2--2-----2--2--2-----
D|--9--7-------------4-----------4-----------4-----------4-----------4-----------4-----------4--
A|--9--7----------------------------------------------------------------------------------------
E|--7--5----------------------------------------------------------------------------------------



E|----------------------------------------------------------------
B|----------------------------------------------------------------
G|-----4--4--4--4--4--6--4--2-------------4--4--4--4--4--6--4--2--
D|--4----------------------------------4--------------------------
A|----------------------------------------------------------------
E|----------------------------------------------------------------



E|--
B|--
G|--
D|--
A|--
E|--



E|--------------------------------------------------
B|--4--------4--5--------------------------5--------
G|-----4-----------6-----6--6--6--6-----6-----6-----
D|--------6-----------6--------------4-----------6--
A|--------------------------------------------------
E|--------------------------------------------------



E|--------------------------------------------------------
B|-----------------4--5--------------------------5--------
G|--4--4--4--4-----------6-----6--6--6--6-----6-----6-----
D|--------------6-----------6--------------4-----------6--
A|--------------------------------------------------------
E|--------------------------------------------------------
http://www.guitartabcreator.com
Guitar Tab Creator is intended to store guitar tab created through the tool. It currently does not support in-line text editing. Any text you place in here will be lost. If you need to comment on your tab, please use the "Tab Notes" section located below.