How to play Soukous Jerry Short 1

(/) Slide Up  (\) Slide Down  (h) Hammer On  (p) Pull Off  (b) Bend (r) Release (v) Vibrato
E|------------------------------------------------------
B|----------------------1-------------------------1-----
G|--------0----------2-----0--------0----------2-----0--
D|-----2-----0h2--3--------------0-----0h2--3-----------
A|--3---------------------------------------------------
E|----------------------------3-------------------------



E|--12------------------------------13/17--15------------------15------13------15--------
B|------13--12h13p12\10------------------------------------12----------------------------
G|-----------------------12p11--10-------------12--13--14----------12------12------------
D|---------------------------------------------------------------------------------------
A|---------------------------------------------------------------------------------------
E|---------------------------------------------------------------------------------------



E|--------------12--10--8h10p8p0---------------------------------------------
B|------------------------------------12----------10--12--13--12p10----------
G|--2/9------9--------------------12----------10---------------------12--10--
D|-------10-------------------------------10---------------------------------
A|---------------------------------------------------------------------------
E|---------------------------------------------------------------------------


E|-12-12-12-12-12-12-12-12-12-12-12\0----12-15-13p12----12-------
B|---------------------------------------------------15----13----
G|------------------------------------------------------------12-
D|---------------------------------------------------------------
A|---------------------------------------------------------------
E|---------------------------------------------------------------



E|----------15--13p12------12----------15--13p12------12--
B|--13-----------------15------12-----------------15------
G|------12-------------------------12---------------------
D|--------------------------------------------------------
A|--------------------------------------------------------
E|--------------------------------------------------------



E|--15--15--15--15--13p12--------------------------------------
B|-------------------------15--13----13p12------12--13--12-----
G|------------------------------------------14-----------------
D|-------------------------------------------------------------
A|-------------------------------------------------------------
E|-------------------------------------------------------------



E|---------------------------------------------
B|----------12--15--15--13p12------12--13--12--
G|------12---------------------14--------------
D|--12-----------------------------------------
A|---------------------------------------------
E|---------------------------------------------
http://www.guitartabcreator.com
Guitar Tab Creator is intended to store guitar tab created through the tool. It currently does not support in-line text editing. Any text you place in here will be lost. If you need to comment on your tab, please use the "Tab Notes" section located below.