Double Double - Nyboma

(/) Slide Up  (\) Slide Down  (h) Hammer On  (p) Pull Off  (b) Bend (r) Release (v) Vibrato

E|--16--19--16--17p16------16------------------17\5--------------------------------
B|---------------------19------16------16--19----------16--------------17--17--17--
G|---------------------------------16----------------------18--16------------------
D|-----------------------------------------------------------------18--------------
A|---------------------------------------------------------------------------------
E|---------------------------------------------------------------------------------



E|--------------------------------------------------------------------------------
B|------17------19------16--------------16--19\7------16--------------17--17--17--
G|--16------16------16------18--16--16--------------------18--16------------------
D|----------------------------------------------------------------18--------------
A|--------------------------------------------------------------------------------
E|--------------------------------------------------------------------------------



E|------17------16---------------------------------------------------------------------
B|--19------19------19\17--16------------------------------16--------------------------
G|-----------------------------16--16--18--18--18--18--18------18--16----------16--16--
D|---------------------------------------------------------------------18--18----------
A|-------------------------------------------------------------------------------------
E|-------------------------------------------------------------------------------------
http://www.guitartabcreator.com
Guitar Tab Creator is intended to store guitar tab created through the tool. It currently does not support in-line text editing. Any text you place in here will be lost. If you need to comment on your tab, please use the "Tab Notes" section located below.