Doly- Les Quatre Etoiles

(/) Slide Up  (\) Slide Down  (h) Hammer On  (p) Pull Off  (b) Bend (r) Release (v) Vibrato

E|------------------------------------------------------------------------------
B|--13--15--13--12------13--12----------------------------------------------10--
G|------------------14----------14--12--14--12--11------12--11------11--11--9---
D|--------------------------------------------------14----------14--12--12------
A|------------------------------------------------------------------------------
E|------------------------------------------------------------------------------



E|----------------------14--------------------------12------14----------
B|------12--13--15--15------15------12--13--13--13------15------15--13--
G|--12--------------------------14--------------------------------------
D|--12------------------------------------------------------------------
A|----------------------------------------------------------------------
E|----------------------------------------------------------------------
http://www.guitartabcreator.com
Guitar Tab Creator is intended to store guitar tab created through the tool. It currently does not support in-line text editing. Any text you place in here will be lost. If you need to comment on your tab, please use the "Tab Notes" section located below.