C'est Gna Bele

(/) Slide Up  (\) Slide Down  (h) Hammer On  (p) Pull Off  (b) Bend (r) Release (v) Vibrato
E|---------------------------------------------------------------
B|-------------------------8------10p8-----8---------------------
G|--12--12--12\0------1/9---------------9-----9--7--7------------
D|-----------------------------------------------------9---------
A|---------------------------------------------------------------
E|---------------------------------------------------------------



E|------------------------------------7--8--7----------------
B|-----8-----6-----5--6\5---------10-----------10--8--10--8--
G|-------------------------5---------------------------------
D|--9-----7-----5--------------------------------------------
A|-----------------------------------------------------------
E|-----------------------------------------------------------



E|--7p5-----5-----5----------------------------------------------------------
B|-------8-----8-----5--------------8--8--8-----6-----5-------------------8--
G|-------------------------------------------9-----7-----7--7--7-------------
D|---------------------------------------------------------------------------
A|---------------------------------------------------------------------------
E|---------------------------------------------------------------------------



E|-----------------------------------------------------------------
B|-----8-----6-----6p5--------5-------5-------10-------------------
G|--9-----7-----7-------7--5-----7/9-------9------9--7--5--9--9\7--
D|-----------------------------------------------------------------
A|-----------------------------------------------------------------
E|-----------------------------------------------------------------



E|------------------------------
B|-------8-----6----5-----------
G|------------------5-----5--5--
D|--7/9-----7-------5--------5--
A|---------------------8-----7--
E|------------------------------



E|------12----------------------------------------5--
B|------13------15------8--8--6--6----8--6--5--8-----
G|------12------16------7--7--5--5----9--5--5--------
D|------14------17-----------------------------------
A|--------------17-----------------------------------
E|---------------------------------------------------
http://www.guitartabcreator.com
Guitar Tab Creator is intended to store guitar tab created through the tool. It currently does not support in-line text editing. Any text you place in here will be lost. If you need to comment on your tab, please use the "Tab Notes" section located below.