Amour Fou

(/) Slide Up  (\) Slide Down  (h) Hammer On  (p) Pull Off  (b) Bend (r) Release (v) Vibrato

E|--------------------------------------------------------------5--5--
B|--------7-----------------------------------------------------5--5--
G|--6--9-----6--9p6--6-----6-----------7-----4------------------6--6--
D|----------------------9-----7--4--7-----4-----7p4--4--6-------7--7--
A|---------------------------------------------------------5\3--------
E|--------------------------------------------------------------------



E|--5--3--------3--2--------2--------------
B|--------3-----------3--------5-----------
G|-----------4-----------2--------4--7-----
D|-----------------------------------------
A|-----------------------------------------
E|-----------------------------------------



E|-----------5--7--5--7--7--7--7-----7---------------------------------
B|-----5--5-----------8--8--8--8--8-----8/10------10--10p9--9--7h9--7--
G|--6-----------------7--7--7--7--------------11-----------------------
D|---------------------------------------------------------------------
A|---------------------------------------------------------------------
E|---------------------------------------------------------------------



E|--2/5--5--5--7--5--7--7--7--7-----7---------------------------------
B|-------------------8--8--8--8--8-----8/10----------10p9--9--7h9--7--
G|-------------------7--7--7--7--------------11-----------------------
D|-----------------------------------------------12-------------------
A|--------------------------------------------------------------------
E|--------------------------------------------------------------------



E|--10p9-----------------7--7--7--7-----7------------------------------------
B|--------12--10h12--10--8--8--8--8--8-----8/10------10--10p9--9--9--7h9--7--
G|-----------------------7--7--7--7--------------11--------------------------
D|---------------------------------------------------------------------------
A|---------------------------------------------------------------------------
E|---------------------------------------------------------------------------
http://www.guitartabcreator.com
Guitar Tab Creator is intended to store guitar tab created through the tool. It currently does not support in-line text editing. Any text you place in here will be lost. If you need to comment on your tab, please use the "Tab Notes" section located below.