Reel Around the Fountain

(/) Slide Up  (\) Slide Down  (h) Hammer On  (p) Pull Off  (b) Bend (r) Release (v) Vibrato
E|--0-----------------------------------|-----------0-----------------0-----
B|--3--------3--------0--------3--0-----|--3--3-----------3-----3-----------
G|--0--------------------------------0--|--2-----2-----2-----2-----2--------
D|--5-----5--------5--------5-----------|--0--------------------------------
A|--5--5--------5--------5--------------|-----------------------------------
E|--------------------------------------|-----------------------------------



E|-----------------------|--------------0-----|-------------------0-----------------0--------
B|-----------------------|-----------3-----0--|----------3-----------------3-----------3-----
G|--------------0--------|--------0-----------|-------------------------------------------0--
D|--------4--------4-----|-----2--------------|-------5--------5--------5--------5-----------
A|-----2-----2--------2--|--3-----------------|--3/5--------5--------5--------5--------------
E|--0--------------------|--------------------|----------------------------------------------



E|--0-----------------------------------|----------------------------------------
B|--3--------3--------0--------3--0-----|--7-----7--10--8-----7-----7--10--8--7--
G|--0--------------------------------0--|--7--7------------7-----7---------------
D|--5-----5--------5--------5-----------|--0-------------------------------------
A|--5--5--------5--------5--------------|----------------------------------------
E|--------------------------------------|----------------------------------------



E|-----------------------|--------------0-----|-------------------0-----------------0-----
B|-----------------------|-----------3-----0--|----------3-----------------3--------------
G|--------------0--------|--------0-----------|-------------------------------------------
D|--------4--------4-----|-----2--------------|-------5--------5--------5--------5--------
A|-----2-----2--------2--|--3-----------------|--3/5--------5--------5--------5-----------
E|--0--------------------|--------------------|-------------------------------------------



E|--------0-----0-----------|-----------------------------|--------------------------
B|--3--2--1--------1--------|--0-----0--------1-----0-----|--------------------------
G|--0--2--0-----------------|-----------------------------|-----2--------0--------2--
D|--5--5--3--------------3--|--------------2--------------|--2--------2--------2-----
A|--5--4--3--3--------3-----|-----------2--------2-----0--|--------0--------0--------
E|--------------------------|-----0-----------------------|--------------------------



E|-----------------------|--------------0-----------------------0-----------
B|-----1--------0-----0--|-----------------------0-----------------------0--
G|-----------------------|--------2--------------------2--------------------
D|-----------2-----------|--------------------------------------------------
A|--0-----0--------0-----|-----3--------------3--------------3--------3-----
E|-----------------------|--1--------1-----1--------1-----1--------1--------



E|----------------------------------2--2--|-------------------
B|--0h1--0h1p0--------1p0-----------3--3--|-------3-----0-----
G|--0----0------0----------0-----0--2--2--|----------------0--
D|-----------------0----------0-----0--0--|-------------------
A|----------------------------------------|--3/5-----5--------
E|----------------------------------------|-------------------



E|--0--0-----------------
B|--3-----0--------1--0--
G|--2--------------------
D|--0--------------------
A|--------------2--------
E|-----------0-----------
http://www.guitartabcreator.com
Guitar Tab Creator is intended to store guitar tab created through the tool. It currently does not support in-line text editing. Any text you place in here will be lost. If you need to comment on your tab, please use the "Tab Notes" section located below.