Cavalleria Rusticani

(/) Slide Up  (\) Slide Down  (h) Hammer On  (p) Pull Off  (b) Bend (r) Release (v) Vibrato


E|-----0--3--|--3--1--0-----|--5-----------|-----0--------|--0-----------5--2--|--3-----1--------
B|--1--------|--1--------3--|-----1--5-----|--3--0--------|-----1--0-----3-----|--0-----1--------
G|--0--------|--2-----------|--------5--2--|--4--1--------|--2--------2--5-----|--0-----2--2-----
D|--2--------|--0-----------|--4-----5-----|--5-----------|--2-----------4-----|--------0--------
A|--3--2--0--|--------------|--------------|--------------|--0-----------0-----|-----2-----------
E|-----------|--------0--1--|--2-----3--2--|--3--0--------|--------------------|--3--------------



E|--0-----1--3--1--------|--0--------5--|--5--3--2--0--------|-----------
B|--0--3--1-----------1--|--0--3--1-----|--3-----------3--1--|--1--0--3--
G|--0--4--2--------2-----|--0-----2-----|--5-----------------|--0--------
D|--------0--------------|--------2-----|--4-----------2--4--|--0--------
A|-----------------------|--------0-----|--0-----------------|-----------
E|--0--3-----------------|--3--4--------|--------------------|--3--------
http://www.guitartabcreator.com
Guitar Tab Creator is intended to store guitar tab created through the tool. It currently does not support in-line text editing. Any text you place in here will be lost. If you need to comment on your tab, please use the "Tab Notes" section located below.