deneme

(/) Slide Up  (\) Slide Down  (h) Hammer On  (p) Pull Off  (b) Bend (r) Release (v) Vibrato
E|-----------3------------------------------------------------------13--13--------------
B|--------5-----2-----------------1--1-----------------------9--10----------14--15------
G|-----------------2-----------------------------------7--9-------------------------16--
D|--9--8--------------3--4-----1--------2-----------------------------------------------
A|--------------------------3--------------3--4-----7-----------------------------------
E|-----------------------------------------------6--------------------------------------



E|----------------------11--------------------------------------------
B|----------16--13--12----------------5--5-----8----------------------
G|--16--16-------------------------6--------8-------------------------
D|--------------------------------------------------------------------
A|--------------------------10--9-----------------10--11--12--13--15--
E|--------------------------------------------------------------------



E|---------------------------------------
B|------------------16--13--10-----------
G|--16--17--17--17--------------------6--
D|------------------------------7--7-----
A|---------------------------------------
E|---------------------------------------
http://www.guitartabcreator.com
Guitar Tab Creator is intended to store guitar tab created through the tool. It currently does not support in-line text editing. Any text you place in here will be lost. If you need to comment on your tab, please use the "Tab Notes" section located below.