ทุ้มอยู่ในใจ

(/) Slide Up  (\) Slide Down  (h) Hammer On  (p) Pull Off  (b) Bend (r) Release (v) Vibrato


(C) (Em7)
E|---------3\5/3---------------------------------------------0----------------------------------
B|------------------5/3p1---------1-------------------1h3---------3-----------------------------
G|------------------------------------------0------------------------------------0--------------
D|----5--------------------------------2---------2--------------------------2---------2---------
A|--------------------------------3---------------------------------------------------------
E|---------------------------------------------------------------------0------------------------

(Am7) (F#m7)
E|---------0---------------------------------------------------------------------------------------
B|----3---------1h3----1p--------------------1------------------------------------1---------1p0----
G|---------------------------------0--------------0---------0---------0h2----0---------------------
D|----------------------------2---------2--------------2--------------3----------------3-----------
A|-------------------------0-------------------------------------------------------------------------
E|-------------------------------------------------------------------------------------------------


(C)
E|------------------------
B|--------------1---------
G|----2-------------------
D|------------------------
A|--------------3---------
E|------------------------
http://www.guitartabcreator.com
Guitar Tab Creator is intended to store guitar tab created through the tool. It currently does not support in-line text editing. Any text you place in here will be lost. If you need to comment on your tab, please use the "Tab Notes" section located below.