Theory Composition

(/) Slide Up  (\) Slide Down  (h) Hammer On  (p) Pull Off  (b) Bend (r) Release (v) Vibrato

C#|--16h12----------------------12----------------------12--14------
G |---------14--------------14------16--14--13--14--16----------16--
E |-------------13------13------------------------------------------
B |-----------------14----------------------------------------------
F#|-----------------------------------------------------------------
C#|-----------------------------------------------------------------



C#|--12------12h16h21p16p12------17--16--14----------------------
G |------14------------------14--------------17--16--14----------
E |------------------------------------------------------17--13--
B |--------------------------------------------------------------
F#|--------------------------------------------------------------
C#|--------------------------------------------------------------
http://www.guitartabcreator.com
Guitar Tab Creator is intended to store guitar tab created through the tool. It currently does not support in-line text editing. Any text you place in here will be lost. If you need to comment on your tab, please use the "Tab Notes" section located below.