Idea #1

(/) Slide Up  (\) Slide Down  (h) Hammer On  (p) Pull Off  (b) Bend (r) Release (v) Vibrato


E|-------------------------------------------------------------------------
B|-------------------------------------------------------------------------
G|-------------------------------------------------------------------------
D|-------------------------------------------------------------------------
A|-----5---4---5---4-----------5---4---5---4-----------5---4---5---4-------
E|-7-7---7---0---5---7-5-4-7-7---7---0---5---7-5-4-7-7---7---0---5---7-5-4-



E|-----------------------------------------------
B|---------2-----------------------2-------4-4-4-
G|-x-x-3-3-2-5-5-5-7-7-7---x-x-3-3-2-5-5-5-4-4-4-
D|-x-x-3-3-0-5-5-5-7-7-7---x-x-3-3-0-5-5-5-0-0-0-
A|-X-x-1-1---3-3-3-5-5-5---x-x-1-1---3-3-3-------
E|-----------------------------------------------
http://www.guitartabcreator.com
Guitar Tab Creator is intended to store guitar tab created through the tool. It currently does not support in-line text editing. Any text you place in here will be lost. If you need to comment on your tab, please use the "Tab Notes" section located below.