Because I miss you by YongHwa

(/) Slide Up  (\) Slide Down  (h) Hammer On  (p) Pull Off  (b) Bend (r) Release (v) Vibrato


E|-------------0-------------0--1-----1h3--1--0--------3--------------------
B|--1-----1h3-----1-----1h3----------------------3-----3-----3-----1-----3--
G|---------------------------------2----------------2-----------0--0-----0--
D|-----2-------------2----------0-------------------------0-----------------
A|--3-------------0---------------------------------------------------0-----
E|-----------------------------------------------------3--------------------



E|--0--------0--1--3\5--5--3--3-------------------------3\5--3--------3-----1-----------3--------
B|--------1-------------------3--1p0--1--------1--0----------------0-----1--1-----1-----3--------
G|-----0----------------------0-------------0-------------------0-----------2--------2--4--------
D|---------------------------------------2-----------0-------------------------3-----------5-----
A|--3-------------------2-------------0-----------2----------3-----------------------------------
E|--------------------------------------------------------------------------1-----------3--------



E|--------------------------------1--------1h3--1--0--------1--3--
B|--3-----0-----3-----1-----1-----3-----3-------------3-----1--3--
G|-----4--0--------0--2--------2-----2-------------------2--2--4--
D|-----------2-----------2--------0-------------------------3--5--
A|--------2-----------0-------------------------------------3--5--
E|----------------------------------------------------------1--3--
http://www.guitartabcreator.com
Guitar Tab Creator is intended to store guitar tab created through the tool. It currently does not support in-line text editing. Any text you place in here will be lost. If you need to comment on your tab, please use the "Tab Notes" section located below.