Pirates of the caribbean - Sungha jung (Gareth Evans)

(/) Slide Up  (\) Slide Down  (h) Hammer On  (p) Pull Off  (b) Bend (r) Release (v) Vibrato
E|----------------------------------------------------------------------------------0----1--1-----1--3----
B|-------------------------------------------------------------------1--3--3-----3-------3--3-------------
G|----------------------------------------------------------------2-----2--2-------------3--3-------------
D|--0----0--0--0--0--0----0--0--0--0--0----0--0--0--0--0----0--0--------0-----0----------3--3-------------
A|---------------------------------------------------------------------------------------1-----1----------
E|---------------------------------------------------------------------------------------1----------------



E|--0--0------------------------------------------0----1--1-----1--3----0--0----------------------------
B|--1--1-----3--1--1h3-----------1----3--3-----3-------1--1-------------1--1-----3--1--1h3-----------1--
G|--0--0----------------------2-------2--2-------------2--2-------------0--0----------------------2-----
D|--2--2-----------0----0--0----------0-----0----------3--3-------------2--2-----------0----0--0--------
A|--3-----3-------------------------------------------------------------3-----3-------------------------
E|-----------------------------------------------------3-----3------------------------------------------



E|--------------0--3--3-----3--5----6--6-----5--3----5-----------0----1--1-----3--5----------------1--
B|--3--3-----3-----3--3-------------2--2----------------3-----3----------------------3----------3-----
G|--2--2-----------3--3-------------2--2--------------------------------------------------------------
D|--0-----0--------5--5-------------2--2-------------------0-------------------------------0----------
A|----------------------------------0-----0---------------------------1--1--1-----------0-------------
E|-----------------5-----5---------------------------0----------------------------0-------------------



E|--0--0-----1--0------0--0-----------------0--1--1--3----5----------6------------0--0--0--0--
B|--2-----------2---------------3--1--3--3--1--3--3--1----2--5p2-----3--6p3-------2--2--3--2--
G|--2-----------2---------------------2--2--0--3--3--3----2-------2--3-------3----2--2--3--2--
D|--2-----------2---------------------0--0--2--3--3--3----2----------3------------2--2--3--2--
A|--0-----0-----0------0-----0--------------3--1--1--1----0-------0--0-------0----0--0--0--0--
E|--------------------------------------------------------------------------------------------



E|--5--5--5--6--5----3--3--3--3--5----5--5--5--6--5-------------------
B|--6--6--6--6--6----1--1--1--1--3----6--6--6--6--6-------------------
G|--7--7--7--7--7---------------------7--7--7--7--7-------------------
D|--0--0--0--0--0---------------------0--0--0--0--0----0--5--3--2--0--
A|-------------------3--3--3--3--5------------------------5--3--2--0--
E|--------------------------------------------------------5--3--2--0--



E|-----0--1-----3--5--3--1--0--1--3--5--3-----1--3--5-----3--1--0--1--0--------0-----------
B|--3--------------3--------------------------------------------------2--3--------1--3-----
G|-----------2-----------0-----------2--------0--------------2-----2--------------2--------
D|--------0-----------------------3--------2-----------0--------------------0-----------0--
A|--------------------3-----------------3-----------------------0--------------------------
E|-----------------------------3--------------------0--------------------0-----------0-----



E|-----0--1-----0--1--3--1--3--5--3--1--1-----0--1--3--5--6-----3--1-----3--0--------0-----
B|--3--------------3--------1--------3--3--3-----------------3--------------3--3--------1--
G|-----------2-----------0--------2-----3--------------3--------3-----2-----------2--------
D|--------0--------------------0--------3-----------3--------5-----0-----------------------
A|--------------------3-----------------1--------1-----------------------------------------
E|--------------------------------------------------------5--------------------0--------0--



E|--5--6--5--5--5--3--0--1--0--1--0--------------5--6--5--5--5--5--3--0--1--0--1--0--0--
B|--6--3--6--6--------0--3--2--2--2--3--------6--6--3-----------------0--3--2--2--2--3--
G|--7--3--7--7--2--0--0--2--2--2--2--2-----7-----7--3--2--2--2--2--0--0--2--2--2--2--2--
D|--0--3--0--0--------5--0-----------0--7--------0--3-----------------5--0-----------0--
A|--------------3--3--5--0--0--0--0--------------------3--3--3--3--3--5--0--0--0--0--0--
E|--------------------5--0-----------0--------------------------------5--0-----------0--
http://www.guitartabcreator.com
Guitar Tab Creator is intended to store guitar tab created through the tool. It currently does not support in-line text editing. Any text you place in here will be lost. If you need to comment on your tab, please use the "Tab Notes" section located below.