Untitled

(/) Slide Up  (\) Slide Down  (h) Hammer On  (p) Pull Off  (b) Bend (r) Release (v) Vibrato

E|---------0-------------------------------------------2-------2-0-4/5-2\0---------------------------
B|---2---------0-----0-------------------------0---2-------0-----------------0-----0---0-----0---3---
G|-----2-----------1-------0-----0-----0-----0-------2-------2-------------------0---------0---------
D|-------2-------2-------2-----2-----4-----4-----0-------0---------------------2---------4---------4-
A|-----------2---------2-----3-----5-----5---------------------------------3---------5---------0-----
E|-0-------------------------------------------------------------------------------------------------



E|-------------2\0--3-----0--5--7/9------12\10------------7--9\5-------------2/3\2v--0--
B|-----3\0--2----------3-------------10---------8/10\8\5----------5\3\2/3\0-------------
G|--0---------------4-------------------------------------------------------------------
D|---------------------5----------------------------------------------------------------
A|--------------------------------------------------------------------------------------
E|--------------------------------------------------------------------------------------
http://www.guitartabcreator.com
Guitar Tab Creator is intended to store guitar tab created through the tool. It currently does not support in-line text editing. Any text you place in here will be lost. If you need to comment on your tab, please use the "Tab Notes" section located below.